Главная

FAQFAQ |  ПоискПоиск |  Войти и проверить личные сообщенияВойти и проверить личные сообщения |  ПрофильПрофиль

===ГИТАРА - табы===
На страницу Пред.  1, 2, 3, 4  След.

User:  acoustic_mirror
Ветеран

Посмотреть профиль Отправить личное сообщение Посетить сайт автора ICQ Number
Добавлено: Чт 05.12.02, 01:30

Nirvana: Аккорды к песне 'Man Who Sold The World'

Intro:
e|--------------------|
B|--------------------|
G|--2-2-2-0--2h3p2-0--|

Verse:
A
We passed upon the stairs,
D
We spoke of was and when
A
Although I wasn't there
F
He said I was his friend
C
Which came as a surprise
A
I spoke into his eyes
D
I thought you died alone
C
A long long time ago

Chorus1:
(On chorus play instead of chords smth like these riffs)
(В куплете играть вместо аккордов что то типа этих рифов)

C - Riff F - Riff
G|-----------2-4-5-| G|-----------------|
D|-----2-3-5-------| D|-----------0-2-3-|
A|-3-5-------------| A|-----0-1-3-------|
E|-----------------| E|-1-3-------------|
F
Oh no, not me,
A# F
We never lost control,
C F
You're face to face,
A# A
With the man who sold the world

Intro:

Verse:
A
I laughed and shook his hand,
D
I made my way back home,
A
I searched for form and land,
F
Years and years I roamed,
C
I gazed a gazely stare,
A
We walked a million hills
D
I must have died alone,
C
A long long time ago.

Chorus2:
F
Who knows, not me,
A# F
I never lost control,
C F
You're face, to face,
A# A
With the man who sold the world.

Intro:
Chorus2:
Intro:

Outro:
G|--2-2-2-0--2h3p2-0--2-2-2-0--2h3p2-0--/9-9-9-9-9-9-9-9--|

G|--\2-2-2-0--2h3p2-0--2-2-2-0--2h3p2-0-/10-10-10-10-10--|

G|-\9-\7-7-7-7-7-7-/9-9-9-9-9-\2-2-2-0-2h3p2-0-/10-10-10-|

G|-10-10-\9-\7-7-7-7-7-7-/9-9-9-9-9-\2-2-2-0-2h3p2-0--2--|

    
Вернуться к началу



User:  _Diesel_
Постоянный участник

Посмотреть профиль Отправить личное сообщение
Добавлено: Пт 06.12.02, 17:11

Бетховен. "К Элизе"

Am E Am
e|-0---0---0---------------------------------------|
B|---4---4---0-3-1-------------0---------0-1-------|
G|-----------------2---------2-----1---1-----------|
D|-------------------2-----2-----2---2-------2---2-|
A|-----------------0---0-3-----------------0---0---|
E|-----------------------------0-------------------|
Am E E7 Am
e|-0---0---0-------------------------------------|
B|---4---4---0-3-1-------------0-------1-0-------|
G|-----------------2---------2-----1-------2-----|
D|-------------------2-----2-----2---0-----------|
A|-----------------0---0-3-----------------0---0-|
E|-----------------------------0-------------0---|
Am E Am
e|-0---0---0---------------------------------------|
B|---4---4---0-3-1-------------0---------0-1-------|
G|-----------------2---------2-----1---1-----------|
D|-------------------2-----2-----2---2-------2---2-|
A|-----------------0---0-3-----------------0---0---|
E|-----------------------------0-------------------|
Am E E7 Am
e|-0---0---0---------------------------------------|
B|---4---4---0-3-1-------------0-------1-0-------0-|
G|-----------------2---------2-----1-------2-------|
D|-------------------2-----2-----2---0-------------|
A|-----------------0---0-3-----------------3---0---|
E|-----------------------------0-------------0-----|

e|-----0-------1-0---------0--------------------0-------0---0-------------|
B|-1-3-----1-------3---0-----3-1-------3-1-0------------------------------|
G|-------0---0-------0-------------2--------------------------------------|
D|-----------------------3-------2---2--------2-----2-2---2---1-2-1-2-1-2-|
A|-----3-----------------------0------------------------------------------|
E|-----------------3-----------------------0------0-----------------------|
Am E Am
e|-0---0---0---------------------------------------|
B|---4---4---0-3-1-------------0---------0-1-------|
G|-----------------2---------2-----1---1-----------|
D|-------------------2-----2-----2---2-------2---2-|
A|-----------------0---0-3-----------------0---0---|
E|-----------------------------0-------------------|
Am E E7 Am
e|-0---0---0-------------------------------------|
B|---4---4---0-3-1-------------0-------1-0-------|
G|-----------------2---------2-----1-------2-----|
D|-------------------2-----2-----2---0-----------|
A|-----------------0---0-3-----------------3---0-|
E|-----------------------------0-------------0---|
-Cool -Cool -Cool

    
Вернуться к началу



User:  _Diesel_
Постоянный участник

Посмотреть профиль Отправить личное сообщение
Добавлено: Пт 06.12.02, 17:13

J.-S.Bach. "2-Part Invention #13 in A-minor"

e:---------------------------------------------------------------------
B:-----------1--0-----0--3--1-----1-----------0--------------1--0------
G:--------2-----------------2-----------1-----------2-----2------------
D:-----2-----------2-----------------------------0-----2---------------
A:--0-----0-----------------0-----0--3--2-----2-----3-----0--------2---
E:--------------0-----4--------0-----------0--------------------4------

e:----------------------------------------0-----0----------------------
B:--0--3--1----------------------------------1--------1----------------
G:-------------------------------------------------2---------0---------
D:-------------------------------0------------------------2-----3------
A:--------0------0--3--2------2-----3--------0-----3------0-----5--0---
E:--0---------0------------0-------------------------------------------

e:--------------1------------------------------------------------------
B:--------3-------------3--0--3-----0------------------------------1---
G:--2----------------------------0-------------------------------------
D:--------0--3-------------0-----------0--3--2--------2----------------
A:-----0--------0--2-------------------2-----------3-----0-------------
E:--1----------------------------3--------------3----------------------

e:-----------------------------------------------------------------0---
B:-----1-----3-----0-----0-----1--------------------0-----1-----1------
G:--2-----------------0--------------2-----2-----0-----0-----0---------
D:--------3-----------------2-----------3-----0-----3------------------
A:--3-----5--2--------2-----3--0--------5-----------------3------------
E:--------------3-----------------1-----------3------------------------

e:-----------1--0------------------------------------------------------
B:--3-----3------------------1--------------------------------------1--
G:-----0---------------------2-----2--1--------------------------1--2--
D:---------------------------2-----3--2----3--2--0---------------2--2--
A:---------------------------------3--2-------------3--2--2h3p2--2-----
E:--------------------------------------------0------------------------
-Cool -Cool -Cool

    
Вернуться к началу



User:  aleksey23
Ветеран

Посмотреть профиль Отправить личное сообщение Отправить e-mail
Добавлено: Пт 06.12.02, 22:57

ЦИФЕРКИ, БУКОВКИ, КРЕСТИКИ, НОЛИКИ, ХОТЯ БЫ ОБЪЯСНИЛИ ЧЁ ЭТО ЗНАЧИТ ЧТОЛИ....

    
Вернуться к началу



User:  harley
Новичок

Посмотреть профиль Отправить личное сообщение Отправить e-mail Посетить сайт автора AIM Address Yahoo Messenger MSN MessengerICQ Number
Добавлено: Сб 07.12.02, 11:29

Вам чё в инете этой фигни МАЛО -Question -Question -Question -Question

    
Вернуться к началу



User:  acoustic_mirror
Ветеран

Посмотреть профиль Отправить личное сообщение Посетить сайт автора ICQ Number
Добавлено: Сб 07.12.02, 13:43

Virus_85 писал(а):
Вам чё в инете этой фигни МАЛО -Question -Question -Question -Question

Впринципе ты прав... Но с другой стороны здесь полно таких, у кого инета вообще нет. -Confused

    
Вернуться к началу



User:  aleksey23
Ветеран

Посмотреть профиль Отправить личное сообщение Отправить e-mail
Добавлено: Сб 07.12.02, 15:49

-Evil or Very Mad -Evil or Very Mad ЗДЕСЬ ПОЛНО ТАКИХ КОТОРЫЕ НЕ ЗНАЮТ ЧТО ЭТО ЗА ЦИФЕРКИ И БУКОВКИ -Evil or Very Mad -Evil or Very Mad

    
Вернуться к началу



User:  _Diesel_
Постоянный участник

Посмотреть профиль Отправить личное сообщение
Добавлено: Сб 07.12.02, 18:38

Даааааа... Леха иди как про футбол пиши... или ты гитарой решил всетаки заняться? -Cool

    
Вернуться к началу



User:  _Diesel_
Постоянный участник

Посмотреть профиль Отправить личное сообщение
Добавлено: Сб 07.12.02, 19:50

Cancion Del Mariachi (к/ф "Disperado")
Просмотров: 3901
Antonio Banderos
Album Title: Desperado The Soundtrack
Tabbed Arranged By: Bruno Garcia J.P.
Seneviratne

Original Version

Intro:
_______7_7_7_7_8_7_7_7_8_7_7_______|_____5_5_5_5_7_5_5_5_7_5_5______|
_____8_8_8_8_8_8_8_8_8_8_8_8_8_10__|_____7_7_7_7_7_7_7_7_7_7_7_7_8__|
___9_________________________9_11__|___7_______________________8_9__|
_9_________________________________|_7______________________________|
___________________________________|________________________________|
___________________________________|________________________________|

B Em

Verse 1:
Em B
Soy un hombre muy honrado, Que me gusta lo mejor
Em
A mujeres no me faltan, Ni al dinero, ni el amor.

Verse 2:
Em B
...En mi caballo, Por la sierra yo me voy
Em
Las estrellas y la luna, Ellas me dicen donde voy.

Chrous:
Am Em
Ay, ay, ay, ay
B Em
Ay, ay, mi amor
Am Em
Ay, mi morena
B Em
De mi corazon

(Repeate Intro.)

Verse 3:
Еm B
Me gusta tocar guitarra, me gusta cantar el sol
Em
Mariachi me acompana, quando canto my cancion.

Verse 4:
Em B
Me gustan tomar mis copas, aguardiente es lo mejor
Em
Tanbien la tequilla blanca, con cu sal le da sabor.

Chrous:
Am Em
Ay, ay, ay, ay
B Em
Ay, ay, mi amor
Am Em
Ay, mi morena
B Em
De mi corazon

Solo: Em-B-Em-B-Em-B-Em-B-Em-B-Em

Verse 5:
N.C.
Me gusta tocar guitarra, me gusta cantar el sol
Em
Mariachi me acompana, quando canto my cancion.

Verse 6:
Em B
Me gustan tomar mis copas, aguardiente es lo mejor
Em
Tanbien la tequilla blanca, con cu sal le da sabor.

Chrous:
Am Em
Ay, ay, ay, ay
B Em
Ay, ay, mi amor
Am Em
Ay, mi morena
B Em
De mi corazon
Am Em
Ay, ay, ay, ay
B Em
Ay, ay, mi amor
Am Em
Ay, mi morena
B Em
De mi corazon

    
Вернуться к началу



User:  aleksey23
Ветеран

Посмотреть профиль Отправить личное сообщение Отправить e-mail
Добавлено: Сб 07.12.02, 20:50

СЛЫШ ТЫ ВСЕ ТАКИ ОБЬЯСНИ ЧЁ ЗА ЦИФЕРКИ ------ЭТО НЕ ТОЛЬКО МНЕ НО ВСЕМ ОСТАЛЬНЫМ...

    
Вернуться к началу



User:  _Diesel_
Постоянный участник

Посмотреть профиль Отправить личное сообщение
Добавлено: Сб 07.12.02, 20:56

Итить-молотить опять ты тут мусоришь да на... на... лови:
Строчки это струны (верхняя строка - тонкая струна). Цифры это лады на которых эту струну надо зажать.

    
Вернуться к началу



User:  aleksey23
Ветеран

Посмотреть профиль Отправить личное сообщение Отправить e-mail
Добавлено: Сб 07.12.02, 22:25

А ГДЕ ПЕРВЫЙ ЛАД ГДЕ СТРУНЫ КРЕПЯТСЯ НА ВИНТИКАХ ТАКИХ...ДА???? Я ПРОСТО ИНТЕРЕСУЮСЬ...

    
Вернуться к началу



User:  Scorp23
Завсегдатай

Посмотреть профиль Отправить личное сообщение
Добавлено: Сб 07.12.02, 23:01

aleksey23 писал(а):
А ГДЕ ПЕРВЫЙ ЛАД ГДЕ СТРУНЫ КРЕПЯТСЯ НА ВИНТИКАХ ТАКИХ...ДА???? Я ПРОСТО ИНТЕРЕСУЮСЬ...


Класс Леха! -Laughing -Laughing -Laughing

    
Вернуться к началу



User:  aleksey23
Ветеран

Посмотреть профиль Отправить личное сообщение Отправить e-mail
Добавлено: Сб 07.12.02, 23:06

Андрей писал(а):
aleksey23 писал(а):
А ГДЕ ПЕРВЫЙ ЛАД ГДЕ СТРУНЫ КРЕПЯТСЯ НА ВИНТИКАХ ТАКИХ...ДА???? Я ПРОСТО ИНТЕРЕСУЮСЬ...


Класс Леха! -Laughing -Laughing -Laughing


НЕТ А ЧЁ НЕ ПРАВ ЧТОЛИ ПАРЯТ ЧЁТО ХОТЯБ НАРОДУ ОБЬЯСНИЛИ ЧТО ЭТО ЗНАЧИТ И С ЧЕМ ЭТО ЕСТЬ...

    
Вернуться к началу



User:  _Diesel_
Постоянный участник

Посмотреть профиль Отправить личное сообщение
Добавлено: Вс 08.12.02, 17:02

Yesterday
by John Lennon & Paul McCarteny
табировал Steve Wellman
F A7 Dm
e|-----------------|-------------------0----1--|-0---------------|
b|-----------------|-----0---2---3-------------|----3--3---------|
g|--0--------------|--2------------------------|-----------------|
d|------3---3------|---------------------------|-----------------|
a|-----------------|---------------------------|-----------------|
E|-----------------|---------------------------|-----------------|
Yes-ter-day, all my trou-bles seemed so far a-way

Bb C F Dm G
e|-------------------------------|-------------------|----------------|
b|--3--3---1---------------------|-------------------|----------------|
g|--------------3-----2-------0--|--3---2---2-----0--|----2---0-------|
d|-------------------------------|-------------------|-3----------0---|
a|-------------------------------|-------------------|----------------|
E|-------------------------------|-------------------|----------------|
Now it looks as though they're here to stay, Oh I be-lieve in

Bb F A7 Dm
e|-------------|---------------|-------------------0--1-|--0---------|
b|-------------|---------------|------0---2---3---------|------3--3--|
g|------2---2--|--0------------|--2---------------------|------------|
d|--3----------|------3--3-----|------------------------|------------|
a|-------------|---------------|------------------------|------------|
E|-------------|---------------|------------------------|------------|
yes-ter-day. Sud-den-ly, I'm not half the man I used to be.

Bb C7 F Dm G
e|----------------------------|----------------|------------------|
b|---3-----3--1---------------|----------------|------------------|
g|----------------3---2---0---|-3--2--2-----0--|------2----0------|
d|----------------------------|----------------|--3-----------0---|
a|----------------------------|----------------|------------------|
E|----------------------------|----------------|------------------|
There's a shad-ow hang-ing o-ver me, Oh yes-ter-day came

Bb F A7 Dm Bb C7
e|-------------|------------|-----0--1--0-------|---0-----------------|
b|-------------|------------|--3------------3---|--------3----1----3--|
g|------2---2--|---2---2----|-------------------|---------------------|
d|--3----------|------------|-------------------|---------------------|
a|-------------|------------|-------------------|---------------------|
E|-------------|------------|-------------------|---------------------|
sud-den-ly. Why she had to go I don't know, she would-n't

F A7 Dm Bb C
e|--------|---------|--------0-----1----0----|--0-------------0--|
b|--------|---------|--3-------------------3-|-------3---1-------|
g|--2-----|-2---2---|------------------------|-------------------|
d|--------|---------|------------------------|-------------------|
a|--------|---------|------------------------|-------------------|
E|--------|---------|------------------------|-------------------|
say. I said some-thing wrong now I long for yes-ter-

F A7 Dm
e|-1------------|--------------|-------------------0--1-|---0-----------|
b|-----1--------|--------------|-------0---2---3--------|-------3---3---|
g|--------3--2--|--0-----------|--2---------------------|---------------|
d|--------------|------3---3---|------------------------|---------------|
a|--------------|--------------|------------------------|---------------|
E|--------------|--------------|------------------------|---------------|
day.________ Yes-ter-day, love was such an eas-y game to play.

Bb C7 F Dm G Bb F
e|-----------------------|------------------|---------------|--------------|
b|--3--3--1--------------|------------------|---------------|--------------|
g|------------3---2---0--|--3---2--2-----0--|---2----0------|------2---2---|
d|-----------------------|------------------|-3----------0--|--3-----------|
a|-----------------------|------------------|---------------|--------------|
E|-----------------------|------------------|---------------|--------------|
Now I need a place to hide a-way, Oh I be-lieve in yes-ter-day.

Now repeat from "Why she had to go..." and then play this:
Dm G Bb F
e|-------------|------------|
b|-------------|------------|
g|----2--0-----|-----2--2---|
d|-3--------0--|--3---------|
a|-------------|------------|
E|-------------|------------|
Mm mm mm mm mm mm mm
-Cool -Cool -Cool

    
Вернуться к началу


Новая тема    Ответить
На страницу Пред.  1, 2, 3, 4  След.

 Перейти:  



Следующая тема
Предыдущая тема
Вы не можете начинать темы
Вы не можете отвечать на сообщения
Вы не можете редактировать свои сообщения
Вы не можете удалять свои сообщения
Вы не можете голосовать в опросах

ВходВход

Powered forum by phpBB
© 2001, 2002 phpBB Group