Главная

FAQFAQ |  ПоискПоиск |  Войти и проверить личные сообщенияВойти и проверить личные сообщения |  ПрофильПрофиль

===ГИТАРА - табы===
На страницу Пред.  1, 2, 3, 4  След.

User:  fresh_
Завсегдатай

Посмотреть профиль Отправить личное сообщение
Добавлено: Пн 09.12.02, 16:14

Мужики, я чёта не вкурил, уже есть тема как раз для этих песен, зачем же новую-то заводить?
Вабще темы щас однотемные пошли...

    
Вернуться к началу



User:  _Diesel_
Постоянный участник

Посмотреть профиль Отправить личное сообщение
Добавлено: Вт 10.12.02, 20:29

Че такое??? Кто такие??? шо орут?? Т.е. где тема то??? Как называется???

    
Вернуться к началу



User:  _Diesel_
Постоянный участник

Посмотреть профиль Отправить личное сообщение
Добавлено: Вс 15.12.02, 19:40

Day Tripper by THE BEATLES

|--------------------------------|--------------------------------|
|o------------------------------o|--------------------------------|
|--------------------------------|-------------2-0------4----0h2--|
|-------------2-0------4----0h2--|-----------2--------2----2------|
|o----------2--------2----2-----o|--0----3/4----------------------|
|--0----3/4----------------------|--------------------------------|
-Cool -Cool -Cool

    
Вернуться к началу



User:  _Diesel_
Постоянный участник

Посмотреть профиль Отправить личное сообщение
Добавлено: Вс 15.12.02, 19:58

Ария - Без тебя
Dm C Hb A
e:-1----------0----------------------------------|
B:---3-----3-----1-----1--3-----------2----------|
G:------2-----------0--------3-----------2-----2-|
D:-0----------------------------------------2----|
A:------------3-----------1-----3--1--0----------|
E:-----------------------------------------------|
сновa брошен в окнa лунный свет
Dm C Hb C Dm
e:--1-----------0-------------0-1------|
B:-----3-----3-----1-----1-3------3---3|
G:--------2-----------0-------------2--|
D:--0---------------------------0------|
A:--------------3----------1--3--------|
E:-------------------------------------|
дом мой сонный серебром одет
e:--1--0-------0----------------------------|
B:-------1--------3-------3-2--------2------|
G:---------0--------3---------2---2----2----|
D:--0-----------------3---------2--------2--|
A:-----3-------3--1-------1-0---------------|
E:------------------------------------------|
M-M-M....
Лунной кисти не достичь глубин
Эту бездну знaю я один

Припев:
D G5 Hb C
E||--2----3----x----x---||
B||--3----3----2----1---||
G||--2----0----3----0---||
D||--0----0----3----2---||
A||-------x----1----2---||
E||-------3----x----3---||
D G5
Все, кaк вчерa
D G5 Hb C
Все, кaк вчерa
D G5
Все, кaк вчерa
A
Hо без тебя

Ревность, жалость, словно заодно,
Птицей скорби падаю на дно.

Соло
Гитaрa 2
e:----3--5-6-5------------||--5--3-----3----------||
B:-6------------5--6--5---||--------6-----6--5----||
G:-----------------------o||o--------------------o||
D:-----------------------o||o--------------------o||
A:------------------------||----------------------||
E:------------------------||----------------------||
Гитaрa 1
e:----0--1-3-1------------||--1--0-----0----------||
B:-3------------2--3--2---||--------3-----3--2----||
G:-----------------------o||o--------------------o||
D:-0---------------------o||o-0------------------o||
A:----3--1------0--1--0---||-----3--1--3--1--0----||
E:------------------------||----------------------||

    
Вернуться к началу



User:  volk
Завсегдатай

Посмотреть профиль Отправить личное сообщение Посетить сайт автора
Добавлено: Пн 16.12.02, 16:21

Special for Diesel, becourse он просил....
Nothing Else Matters
(Hetfield/Ulrich)

So close no matter how far
Couldn't be much more from the heart
Forever trusting who we are
And nothing else matters

Never opened myself this way
Life is ours, we live it our way
All these words I don't just say
And nothing else matters

Trust I seek and I find in you
Every day for us something new
Open mind for a different view
And nothing else matters

Never cared for what they do
Never care for what they know
But I know

So close no matter how far
Couldn't be much more from the heart
Forever trusting who we are
And nothing else matters

Never cared for what they do
Never care for what they know
But I know

Never opened myself this way
Life is ours, we live it our way
All these words I don't just say

Trust I seek and I find in you
Every day for us something new
Open mind for a different view
And nothing else matters

Never cared for what they say
Never cared for games they play
Never care for what they know
And I know

So close no matter how far
Couldn't be much more from the heart
Forever trusting who we are
No nothing else matters

    
Вернуться к началу



User:  _Diesel_
Постоянный участник

Посмотреть профиль Отправить личное сообщение
Добавлено: Пт 03.01.03, 19:55

Смысловые Галлюцинации - Зачем топтать мою любовь

Для начала A*:
e ----0---0---0--0---0--0--0--0---
B ----2---2---2--3---2--2--2--2---
G ----2---2---2--2---2--2--2--2---
D ----2---2---2--2---2--2--2--2---
A ----0---0---0--0---0--2--2--2---
E -----------------------------------

Начинается песенка с H5 (для акустической гитары можно с Hm):

Hm Em
Зачем топтать мою любовь
A* D F#
Её и так почти не стало
Я разбиваю руки в кровь
Я не сошел с ума так надо

Куплет такой:

Hm Em
Странно когда ты сходишь с ума
D F#
У меня появляется чувство вины
Я тебя понимаю ведь мне иногда
Тоже снятся страшные сны

Снится что мне не дожить до весны
Снится что вовсе весна умерла
Страх во мне оставляет следы
Я думал что страх это просто слова

Зачем топтать мою любовь
Её и так почти не стало
Я разбиваю руки в кровь
Я не сошел с ума так надо

Hам навеpное лyчше веpнyться домой
И лyчше не видеться несколько дней
Уходил с одной, возвpащаюсь с дpyгой
Мне нyжно pасстаться с тобою скоpей

Мне нyжно избавиться чтобы стать ближе
Чтоб не взоpвалсась моя голова
Чтобы понять что я ненавижy
Я дyмал что ненависть пpосто слова

После второго припева играется проигрыш с соляком:

Ритм:
Hm G A D F# 2 раза
H5 G5 A5 D5 F#5 2 раза

Соло:
e-----------------------------------------------------------------------------------------------------------------------------------
B------------3------3---3------------3--------3---3-------------3------3---3-------------2---5---7---2--------------------
G------4---------4---4----------0----------0---0----------2----------2---2----------3---------------------3-----и сначала

Играем это 4 раза

Акустический припев...и все... -Cool

    
Вернуться к началу



User:  Scorp23
Завсегдатай

Посмотреть профиль Отправить личное сообщение
Добавлено: Сб 04.01.03, 11:03

_Diesel_ писал(а):
Day Tripper by THE BEATLES



Триппер?!! -Laughing А что это правда такая есть у Битлов песня??? -Laughing

    
Вернуться к началу



User:  Саша
Новичок

Посмотреть профиль Отправить личное сообщение
Добавлено: Ср 08.01.03, 12:22

Papercut

Tuning: C, G, C, F, D, A

Intro
D 10--12--13--12--10--12--13--12-----
A --10--10--10--10--10--10--10--10---
F -------------------------------------
C -------------------------------------
G -------------------------------------
C -------------------------------------

Chorus
D -----------------------------------------
A -----------------------------------------
F --------10--9--5-------------------------
C 0-0-0--------------------------------1-3
G 0-0-0---8--7--3---------------------1-3-
C 0-0-0--------------------------------1-3
(last time only)

Verse
D -------------------------------------------
A -------------------------------------------
F -------------------------------------------
C 0-0-0----8-8-8-8-7-7-------------------1-3
G 0-0-0----8-8-8-8-7-7-------------------1-3
C 0-0-0----8-8-8-8-7-7-------------------1-3
[palm mute all] [Every Other Time]

Ending
D --------------------------------------------------------
A --------------------------------------------------------
F --------------------------------------------------------
C 8-8-8---8---8-8-10-10-10---5-5-5---5--5-5-5-5---5-5-5
G 8-8-8---8---8-8-10-10-10---5-5-5---5--5-5-5-5---5-5-5
C 8-8-8---8---8-8-10-10-10---5-5-5---5--5-5-5-5---5-5-5

One Step Closer

Tuning: C, G, C, F, A, D
* = Harmonic
pm = Palm Mute

Intro
D -----------------------------------------------
A -----------------------------------------------
F -----------------------------------------------
C -----------------------------------------------
G ---------*7-----------------------------------
C 0--*5-0-----8-7--0-3-------------------------
pm pm pm

Verse
D -----------------------------------------------
A -----------------------------------------------
F --------9--------5-----------------------------
C 0-0--0--x--8-7---x----------------------------
G 0-0--0--7--8-7---3----------------------------
C 0-0--0-----8-7-0------------------------------

Bridge 1
D ----------------------------------------------------
A ----------------------------------------------------
F ----------------------------------------------------
C 5-5---x-x---x-5-5---x-x---x-5-5--x-x---x-----------
G 5-5---x-x---x-5-5---x-x---x-5-5--x-x---x-----------
C 5-5---x-x---x-5-5---x-x---x-5-5--x-x---x-----------

Bridge 2
D ------------------------------------*5-*5-*5--------
A ---------------------------------*5------------------
F -----------------------------------------------------
C 5-5---x-x---x-5-5---x-x---x-5-5---------------------
G 5-5---x-x---x-5-5---x-x---x-5-5---------------------
C 5-5---x-x---x-5-5---x-x---x-5-5---------------------

Chorus
D --------------------------------------------------------------
A --------------------------------------------------------------
F --------------------------------------------------------------
C 0--0--12-12--10-10--7---8-8--5-5--7-7--3-3---1-1-1-1-1-1-1
G 0--0--12-12--10-10--7---8-8--5-5--7-7--3-3---1-1-1-1-1-1-1
C 0--0--12-12--10-10--7---8-8--5-5--7-7--3-3---1-1-1-1-1-1-1
(last time only)

Other Part
D ---------------------------------------------
A ---------------------------------------------
F ---------------------------------------------
C 1-0---0-0---0---1-3-0-0--6\------0-0-0-----
G 1-0---0-0---0---1-3-0-0--6\------0-0-0-----
C 1-0---0-0---0---1-3-0-0--6\------0-0-0-----
pm...... (second time only)

With You

Guitar Tuning: C, G, C, F, A, D (low to high)
Key: / = Slide
* = Harmonic

INTRO/opening to chorus (* means a harmonic)
D --------------------------------
A --------------------------------
F --------------------------------
C --------------------------------
G --------------------------------
C ---0-0--0-13/0--0-0-0-0-0-4*--

VERSE (High B string and G)
D ---20---19------------------------20--------19-
A --------------19---16-------16--------12-------
F ------------------------------------------------
C ------------------------------------------------
G ------------------------------------------------
C ------------------------------------------------

CHORUS/second part of intro
D --------------------------------------------------
A --------------------------------------------------
F --------------------------------7--------------4--
C ---2----------------------------5--------------x--
G ---0--------------2-------------3--------------5--
C ------------------0----------------------------3--

Points Of Authority

Tuning: C, G, C, F, A, D
Note: H below a note means hammer on

Intro
D ----7-------7--------7-------7------------
A --8---8---8---8---8---8---8---8----------
F 9--------9-------9-------9----------------
C ------------------------------------------
G ------------------------------------------
C ------------------------------------------

Intro 2 and Verse
D ----------------------------------------------------------
A ----------------------------------------------------------
F ----------------------------------------------------------
C 2-2---2h3---3---0h2---2h3---0h2-2---2h3--x-2-x-0-x-3---
G 2-2---2h3---3---0h2---2h3---0h2-2---2h3--x-2-x-0-x-3---
C 2-2---2h3---3---0h2---2h3---0h2-2---2h3--x-2-x-0-x-3---
pm (palm mute the x)

Chorus
D ---------------------------------------
A ---------------------------------------
F 4----5----4----5----4----5----4----5--
C 2----3----2----3----2----3----2----3--
G 2----3----2----3----2----3----2----3--
C 2----3----2----3----2----3----2----3--

Crawling

Tuning: C, G, C, F, A, D
Note: The only guitar part in the whole song is on the chorus.

Chorus
D ----------------------------------------
A ----------------------------------------
F -----3---------5----2-------------------
C 0----3----3----5----2------------------
G 0----1----3----3----0------------------
C 0---------3-----------------------------

Runaway

Tuning: C, G, C, F, A, D
* = Harmonic

Intro
D ----------------------------------------------------------
A ----------------------------------------------------------
F 7---7-7-10---10-10--10---10-10-3---3-3-5---5-5--5---5-5
C 7---7-7-10---10-10--10---10-10-3---3-3-5---5-5--5---5-5
G 5---5-5--8----8--8---8----8--8--1---1-1-3---3-3--3---3-3
C ----------------------------------------------------------

Chorus
D ---------------------------------------------------------------
A ---------------------------------------------------------------
F ----------10---10-10--10---10-10-------------------------------
C 0---0-0---10--10-10--10---10-10-8---8-8-10---10-10--10---10-10
G 0---0-0---8----8---8---8----8--8-8---8-8-10---10-10--10---10-10
C 0---0-0---------------------------8---8-8-10---10-10--10---10-10

Verse (clean)
D -------------------------------------------------------------------
A -------------------------------------------------------------------
F -------------------------------------------------------------------
C *12-*12-*12-*12-*12-*12-*12-*12-*12-*12-*12-*12-10-10-10-10
G -------------------------------------------------------------------
C -------------------------------------------------------------------
pm.............................................................................................

Middle Part
D -----------------------------------
A -----------------------------------
F -----------------------------------
C 0---0-0-1-0-0-0---0-0-0-1--------
G 0---0-0-1-0-0-0---0-0-0-1--------
C 0---0-0-1-0-0-0---0-0-0-1--------

By Myself

Tuning: C, G, C, F, A, D
* = Harmonic

Intro and Bridge
D --------------------------------------------------------------
A --------------------------------------------------------------
F 4--4-----------------4--4-------------------------------------
C 4--4--*3--3-3--3--3--4--4--*3--3-3--3--3--------------------
G 2--2------3-3--3--3--2--2-------3-3--3--3--------------------
C ----------3-3--3--3-------------3-3--3--3--------------------
pm....... pm.......

Chorus
D --------------------------------------------------------------
A --------------------------------------------------------------
F 4--------------------------4----------------------------------
C 4----5--x-x--x--2--x-x--x--4----5--x-x--x--2--x-x--x----------
G 2----5--x-x--x--2--x-x--x--2----5--x-x--x--2--x-x--x----------
C -----5--x-x--x--2--x-x--x-------5--x-x--x--2--x-x--x----------
pm..... pm..... pm..... pm.....

Middle Part
D --------------------------------------------------------------
A --------------------------------------------------------------
F 4--4------------------4--4------------------------------------
C 4--4-------3-3--3--3--4--4-------3-3--3--3-------------------
G 2--2-------3-3--3--3--2--2-------3-3--3--3-------------------
C -----------3-3--3--3-------------3-3--3--3--------------------
pm........... pm............

In The End

Tuning: C, G, C, F, A, D
* = Harmonics

D ------------------------------------------------------
A ------------------------------------------------------
F ---4-4--------------0---------------------------------
C -------5-4---4-4--4-----------------------------------
G -7----------------------------------------------------
C ------------------------------------------------------
Piano arranged for guitar

D -----------7*---------------12*--
A -----7*--------------7*----------
F -5*---------------5*-------------
C ----------------------------------
G ----------------------------------
C ----------------------------------

D ---------------------------------------------------
A ---------------------------------------------------
F -------------7-----5-------------------7-----5--4-
C -2-----5-----7-----5---0--2-----5-----7-----5--4-
G -2-----5-----5-----3---0--2-----5-----5-----3--2-
C -2-----5-----0---------0--2-----5-----0----------

Chorus/Bridge
D -------0-2-3-2--
A ----------------
F -----4----------
C ---5------------
G -7--------------
C ----------------

A Place For My Head

Tuning: C, G, C, F, A, D

Verse 1 and Verse 2 Part 1
D ---------------------------------------------------------------
A ---------------------------------------------------------------
F -------6-6-6-7-6-4---------------------------------------------
C 4---4-----------------7-7--5-5-5-5-5-7------------------------
G ---------------------------------------------------------------
C ---------------------------------------------------------------

Verse 2 Part 2
D ----------------------------------------------------------------
A ----------------------------------------------------------------
F 6-------2-------6-------2---------------------------------------
C 4-------0-------4-------0---------------------------------------
G 4-------0-------4-------0---------------------------------------
C 4-------0-------4-------0---------------------------------------

Chorus
D ----------------------------------------------------------------
A ----------------------------------------------------------------
F -----------6-7-6-4-2--2--2-2-----------------------------------
C 4--4--4-4--6-7-6-4-2--2--2-2-5-5-5-7--------------------------
G 4--4--4-4--4-5-4-2-0--0--0-0-5-5-5-7--------------------------
C 4--4--4-4--------------------5-5-5-7---------------------------

Ending
D -----------------------------------------------------------------
A -----------------------------------------------------------------
F -----------------------------------------------------------------
C 4-4---4-4-4-4---4-4-4---4-4-4-5-7------------------------------
G 4-4---4-4-4-4---4-4-4---4-4-4-5-7------------------------------
C 4-4---4-4-4-4---4-4-4---4-4-4-5-7------------------------------

Forgotten

Tuning (low to high): Db Ab Db Gb Bb Eb

x = mute
* = natural harmonic
p = pull off
/ = slide

All parts played with distortion, unless otherwise noted.

Riff 1:
Eb---------------------------------------------
Bb---------------------------------------------
Gb-----------------------------------7*-------
Db----3p2---2---2-2-2--2-3p2--2----7*-------
Ab----3p2---2---2-2-2--2-3p2--2--------------
Db----3p2---2---2-2-2--2-3p2--2--------------

Riff 2:
Eb--------------------------------------------
Bb--------------------------------------------
Gb--------------------------------------------
Db----3p2---2---2-2-2--2-3p2--2-------------
Ab----3p2---2---2-2-2--2-3p2--2-------------
Db----3p2---2---2-2-2--2-3p2--2-------------

Repeat Riff 1

Riff 3:
Eb--------------------------------------------
Bb--------------------------------------------
Gb--------------------------------------------
Db----3p2---2---2-2-2--2-3---3--2-2/5-------
Ab----3p2---2---2-2-2--2-3---3--2-2/5-------
Db----3p2---2---2-2-2--2-3---3--2-2/5-------

The verses are various combinations of the following two riffs:

Verse Riff 1: (clean, w/ delay)
Eb--------7----5-------------------------------
Bb------5---5----5----------8------------------
Gb-----------------5----5-7--------------------
Db----7---------------7------------------------
Ab---------------------------------------------
Db---------------------------------------------

Verse Riff 2: (clean, w/ delay)
Eb--------7----5--------------------------------
Bb------5---5----5-----------------8------------
Gb-----------------5-----7p5h7p5-7-------------
Db----7----------------7------------------------
Ab----------------------------------------------
Db----------------------------------------------

Repeat Riff 1 and Riff 3

Chorus: (4x)
Eb---------------------------------------------------------------
Bb---------------------------------------------------------------
Gb----------------9/10-10-10-x----------------------------------
Db----7---7--x-x--9/10-10-10-x--10--10--x-x-9h10-10-10--7-7---
Ab----7---7--x-x--7/8--8--8--x--10--10--x-x-9h10-10-10--7-7----
Db----7---7--x-x----------------10--10--x-x-9h10-10-10--7-7----

Return to Verse Riffs

Repeat - in this order - Riffs 1, 2, 1, and 3

Repeat Chorus (4x)

Bridge Riff 1: (2x)
Eb----------------------------------------------------------------
Bb----------------------------------------------------------------
Gb----------------------------------------------------------------
Db--3---3-3-3-3--3-3-3-2--3--5----------------------------------
Ab--3---3-3-3-3--3-3-3-2--3--5----------------------------------
Db--3---3-3-3-3--3-3-3-2--3--5----------------------------------

Bridge Riff 2: (2x)
Eb---------------------------------------------------------------
Bb---------------------------------------------------------------
Gb---------------------------------------------------------------
Db--7---7--7-7---5--7---3---3-3-3-3--3-3-3-2--3--5-------------
Ab--7---7--7-7---5--7---3---3-3-3-3--3-3-3-2--3--5-------------
Db--7---7--7-7---5--7---3---3-3-3-3--3-3-3-2--3--5-------------

Bridge Riff 3: (1x)
Eb------------------------------------------------------------------
Bb------------------------------------------------------------------
Gb------------------------------------------------------------------
Db--7---7--7-7---5--7---3---3-3-3-3--3-3-3-2--3--3--3----2----5--
Ab--7---7--7-7---5--7---3---3-3-3-3--3-3-3-2--3--3--3----2----5--
Db--7---7--7-7---5--7---3---3-3-3-3--3-3-3-2--3--3--3----2----5--

Repeat Chorus (8x - last time clean)

Pushing Me Away

Tuning: C, G, C, F, A, D

Intro and Verse
D *12------------|------*12------|--------------|---------------
A -------*12-----|---*7------*12-|------*12----|*12----*7-----
F ----*7---------|*5-------------|---*7---------|-----------*7-
C ---------------|----------------|*7------------|----*7--------
G ------------*7-|---------------|-----------*7-|---------------
C ---------------|---------------|---------------|---------------

Chorus 1
D -------------------------------------------------------------------------------------
A -------------------------------------------------------------------------------------
F -----------------------5---5---5-5--5-5---5-5-----------------------2---2--2-4-----
C 2---2---2-2--2-2---2-2-5---5---5-5--5-5---5-5-5---5---5-5--5-5--5-5-2---2--2-4--0
G 2---2---2-2--2-2---2-2-3---3---3-3--3-3---3-3-5---5---5-5--5-5--5-5-0---0--0-2--0
C 2---2---2-2--2-2---2-2-------------------------5---5---5-5--5-5--5-5--------------0

Chorus 2
D -------------------------------------------------------------------------------------
A -------------------------------------------------------------------------------------
F 5---5---5-5--5-5---5-5-7---7---7-7--7-7---7-7-2---2---2-2--2-2---2-2-------------5
C 5---5---5-5--5-5---5-5-7---7---7-7--7-7---7-7-2---2---2-2--2-2---2-2-4---4--4-5--5
G 3---3---3-3--3-3---3-3-5---5---5-5--5-5---5-5-0---0---0-0--0-0---0-0-4---4--4-5--2
C ------------------------------------------------------------------------4---4--4-5---

Carousel

Intro (Flanger)
-------------------
-------------------
----9--------------
------9------------
--7-----7-8-8-8-7--
-------------------

Chorus
-----------------------------------------------------
-----------------------------------------------------
-----------------------------------------------------
--2-2-2--2-----3-3-3--3-----2-2-2--2-----3-3-3--3--
--2-2-2--2-----3-3-3--3-----2-2-2--2-----3-3-3--3--
--2-2-2--2-----3-3-3--3-----2-2-2--2-----3-3-3--3--
. . . . . . . . . . . . . . . .

Bridge
-----------------------------------------------
-----------------------------------------------
-----------------------------------------------
--2-2-2--2---2-2-2--2---2-2-2--2---2-2-2--2--
--2-2-2--2---2-2-2--2---2-2-2--2---2-2-2--2--
--2-2-2--2---2-2-2--2---2-2-2--2---2-2-2--2--
. . . . . . . . . . . . . . . .

End on...
------------
------------
------------
--2-2-2--2--
--2-2-2--2--
--2-2-2--2--
. . . .

My December

Standard tuning:
eBGDAE

Verse( Fig. 1)
E |------------------------------------|
B |------------------------------------|
G |------------------------------------|
D |-0-3-2-3--0-3-2-3----3-2-3----3-2-3-|
A |-------------------3--------3-------|
E |------------------------------------|

Just repeat this throughout the whole song,
clean, with high bass and slightly muffled sound.
I suggest using your fingers instead of a pick.

And One

A ^ under tab means palm mute.

Tuning: D-A-D-G-B-E

"Where should I start?"
E---------------------------------------------------------
B---------------------------------------------------------
G-------------------------13------------------------------
D-----------------------------------------------------11--
A--4-4-4--4--7-7-7--7-7--------4-4-4--4--7-7-7--7-7-------
D--6-6-6--6--7-7-7--7-7--------6-6-6--6--7-7-7--7-7-------
^ ^ ^ ^ ^ ^ ^ ^ ^ ^ ^ ^ ^ ^ ^ ^ ^ ^
Around "If anger's a gift...", the 'possible harmonics' go like this:
E-----|----|-----
B-----|----|-----
G--13-|-11-|-----
D-----|----|-11--
A-----|----|-----
D-----|----|-----

"Keep it locked up inside..."
E-----------------------
B-----------------------
G-----------------------
D--------7-----2-----0--
A--4-----7-----2-----0--
D--6-----7-----2-----0--

When it slows down: "It's too late..."
E-------------------------|-----------------------------
B-------------------------|-----------------------------
G--9-8---6----------------|--9-8h9h8---6----------------
D----------9--------------|--------------9--------------
A--------------7-9---6-7--|------------------7-9---6-9--
D-------------------------|-----------------------------

Gtr 2. during 'softer' "Breaking a part of my heart..." section:
E--------------------------------
B----------------14--------------
G--13------13--------13--11------
D------11--------------------11--
A--------------------------------
D--------------------------------

During 'harder' "Breaking a part of my heart..." and "Keep my distance" section:
E-------------------|----------------------------|-----
B-------------------|----------------------------|-----
G-------------------|----------------------------|-----
D---------2--/--11--|-------------------------9--|-----
A--4-4-4--2--/--11--|--4----4-4-4--2-2-2-2-2-----|--8--
D--6-6-6--2--/--11--|--6----6-6-6--2-2-2-2-2-----|-----
^ ^ ^ ^ ^ ^ ^ ^ ^ ^ ^
+ + + + + + + + + + + + + + + + + + + + + + + + + + + + + + + + + + + +
Tuning: C#-G#-C#-F#-Bb-Eb

"Where should I start?"
Eb---------------------------------------------------------
Bb---------------------------------------------------------
F#-------------------------14------------------------------
C#-----------------------------------------------------12--
G#--0-0-0--0--8-8-8--8-8--------0-0-0--0--8-8-8--8-8-------
C#--0-0-0--0--8-8-8--8-8--------0-0-0--0--8-8-8--8-8-------
^ ^ ^ ^ ^ ^ ^ ^ ^ ^ ^ ^ ^ ^ ^ ^ ^ ^
Around "If anger's a gift...", the higher notes go like this:
Eb-----|----|-----
Bb-----|----|-----
F#--14-|-12-|-----
C#-----|----|-12--
G#-----|----|-----
C#-----|----|-----

"Keep it locked up inside..."
Eb-----------------------
Bb-----------------------
F#-----------------------
C#--0-----8-----3-----1--
G#--0-----8-----3-----1--
C#--0-----8-----3-----1--

When it slows down (1st time): Rest of time:
Eb----------------------------|----------------------------------
Bb----------------------------|----------------------------------
F#--10-9---7------------------|--10-9h10h9---7-------------------
C#-----------10---------------|----------------10----------------
G#----------------8-10---7-8--|---------------------8-10---7-10--
C#----------------------------|----------------------------------

Gtr 2. during 'softer' "Breaking a part of my heart..." section:
Eb--------------------------------
Bb----------------15--------------
F#--14------14--------14--12------
C#------12--------------------12--
G#--------------------------------
C#--------------------------------

During 'harder' "Breaking a part of my heart..." and "Keep my distance" section:
Eb-------------------|-----------------------------|-----
Bb-------------------|-----------------------------|-----
F#-------------------|-----------------------------|-----
C#---------3--/--12--|--0----------------------10--|-----
G#--0-0-0--3--/--12--|--0----0-0-0--3-3-3-3-3------|--9--
C#--0-0-0--3--/--12--|--0----0-0-0--3-3-3-3-3------|-----
^ ^ ^ ^ ^ ^ ^ ^ ^ ^ ^
+ + + + + + + + + + + + + + + + + + + + + + + + + + + + + + + + + + + +
Tuning: Standard

"Where should I start?"
E---------------------------------------------------------
B---------------------------------------------------------
G-------------------------13------------------------------
D-----------------------------------------------------11--
A--4-4-4--4--7-7-7--7-7--------4-4-4--4--7-7-7--7-7-------
E--4-4-4--4--5-5-5--5-5--------4-4-4--4--5-5-5--5-5-------
^ ^ ^ ^ ^ ^ ^ ^ ^ ^ ^ ^ ^ ^ ^ ^ ^ ^
Around "If anger's a gift...", the 'possible harmonics' go like this:
E-----|----|-----
B-----|----|-----
G--13-|-11-|-----
D-----|----|-11--
A-----|----|-----
E-----|----|-----

"Keep it locked up inside..."
E-----------------------
B-----------------------
G-----------------------
D--------7-----2--------
A--4-----7-----2-----5--
E--4-----5-----0-----5--

When it slows down: "It's too late..."
E-------------------------|-----------------------------
B-------------------------|-----------------------------
G--9-8---6----------------|--9-8h9h8---6----------------
D----------9--------------|--------------9--------------
A--------------7-9---6-7--|------------------7-9---6-9--
E-------------------------|-----------------------------

Gtr 2. during 'softer' "Breaking a part of my heart..." section:
E--------------------------------
B----------------14--------------
G--13------13--------13--11------
D------11--------------------11--
A--------------------------------
E--------------------------------

During 'harder' "Breaking a part of my heart..." and "Keep my distance" section:
E-------------------|----------------------------|-----
B-------------------|----------------------------|-----
G-------------------|----------------------------|-----
D---------2--/--11--|-------------------------9--|-----
A--4-4-4--2--/--11--|--4----4-4-4--2-2-2-2-2-----|--8--
E--4-4-4--0--/--9---|--4----4-4-4--0-0-0-0-0-----|-----
^ ^ ^ ^ ^ ^ ^ ^ ^ ^ ^

High Voltage

Tuning: Dropped D one half step down
C# G# C# F# A# D#


[Intro] Whole song is clean guitar
-|--------------------------------------------------------------------------|-
-|--------------------------------------------------------------------------|-
-|--------------------------------------------------------------------------|-
-|--3-3--6--5--4--3---------------------------------------------------------|-
-|--------------------------------------------------------------------------|-
-|--------------------------------------------------------------------------|-
Play 6 times

[Verse]
-|--------------------------------------------------------------------------|-
-|--------------------------------------------------------------------------|-
-|--------------------------------------------------------------------------|-
-|--3-3-----1--4--1---------------------------------------------------------|-
-|-------4------------------------------------------------------------------|-
-|--------------------------------------------------------------------------|-
Play 8 times

[Chorus]
-|--------------------------------------------------------------------------|-
-|--------------------------------------------------------------------------|-
-|--------------------------------------------------------------------------|-
-|--3-3--6--5--4--3---------------------------------------------------------|-
-|--------------------------------------------------------------------------|-
-|--------------------------------------------------------------------------|-
Play twice.

[Verse]
-|--------------------------------|-----------------------------------------|-
-|--------------------------------|-----------------------------------------|-
-|--------------------------------|-----------------------------------------|-
-|--3-3-----1--4--1--3-3-----1--4-|--3-3-----1--4--1------------------------|-
-|-------4----------------4-------|-------4---------------------------------|-
-|--------------------------------|-----------------------------------------|-
Play 6 times.

[Chorus]
-|--------------------------------------------------------------------------|-
-|--------------------------------------------------------------------------|-
-|--------------------------------------------------------------------------|-
-|--3-3--6--5--4--3---------------------------------------------------------|-
-|--------------------------------------------------------------------------|-
-|--------------------------------------------------------------------------|-
Play 4 times.

[Chorus]
-|--------------------------------------------------------------------------|-
-|--------------------------------------------------------------------------|-
-|--------------------------------------------------------------------------|-
-|--3-3--6--5--4--3---------------------------------------------------------|-
-|--------------------------------------------------------------------------|-
-|--------------------------------------------------------------------------|-
Play 4 times.

Step Up

A ^ under tab means palm mute.

Tuning: D-A-D-G-B-E

E---------------------------------------------
B--9-9-9--7--9--------------------------------
G---------------9--6-6--9--8-8----------------
D--------------------------------8-9--6-/-13--
A---------------------------------------------
D---------------------------------------------

E--------------------------------------------
B--------------------------------------------
G--------------------------------------------
D--6-7-/-14-13-----6-7-/-13-----6-7-/-14-13--
A--------------------------------------------
D--------------------------------------------

"Using the waves of sound..."
E---------------------------------
B---------------------------------
G---------------------------------
D--6-6--6--6-6--6--7-7-7--7-7--9--
A--6-6--6--6-6--6--7-7-7--7-7--9--
D--6-6--6--6-6--6--7-7-7--7-7--9--


"Who can rock a rhyme like this..."
E------------------------------------------------------
B------------------------------------------------------
G-----9-9--8-8---6---------------9-9--8-8--------------
D--6--9-9--8-8---6--4-4-4-----6--9-9--8-8----7--9-9-9--
A--6--7-7--6-6---4--4-4-4-----6--7-7--6-6----7--9-9-9--
D--6----------------4-4-4-----6--------------7--9-9-9--

When drums stop:
E-----------------------------------------
B-----------------------------------------
G-----------------------------------------
D--------6-----4--------------6-----4-----
A-----6-----6-----6--------6-----6-----6--
D--6--------------------7-----------------

When Chester starts humming:
E--------------------------------
B--------------------------------
G--------------------------------
D-----------6--7--6-----6--7--6--
A--6-----6-----------6-----------
D-----6--------------------------

+ + + + + + + + + + + + + + + + + + + + + + + + + + + + + + + + + + + +
Tuning: C#-G#-C#-F#-Bb-Eb

Eb--------------------------------------------------
Bb--10-10-10--8--10---------------------------------
F#------------------10--7-7--10--9-9----------------
C#------------------------------------9-10--7-/-14--
G#--------------------------------------------------
C#--------------------------------------------------

Eb-----------------------------------------------
Bb-----------------------------------------------
F#-----------------------------------------------
C#--9-10-/-15-14-----9-10-/-14-----9-10-/-15-14--
G#-----------------------------------------------
C#-----------------------------------------------

"Using the waves of sound..."
Eb----------------------------------
Bb----------------------------------
F#----------------------------------
C#--7-7--7--7-7--7--8-8-8--8-8--10--
G#--7-7--7--7-7--7--8-8-8--8-8--10--
C#--7-7--7--7-7--7--8-8-8--8-8--10--

"Who can rock a rhyme like this..."
Eb-------------------------------------------------------------
Bb-------------------------------------------------------------
F#-----10-10--9-9---7---------------10-10--9-9-----------------
C#--7--10-10--9-9---7--5-5-5-----7--10-10--9-9----8--10-10-10--
G#--7--8--8---7-7---5--5-5-5-----7--8--8---7-7----8--10-10-10--
C#--7------------------5-5-5-----7----------------8--10-10-10--

When drums stop:
Eb-----------------------------------------
Bb-----------------------------------------
F#-----------------------------------------
C#--------7-----5--------------7-----5-----
G#-----7-----7-----7--------7-----7-----7--
C#--7--------------------8-----------------

When Chester starts humming:
Eb--------------------------------
Bb--------------------------------
F#--------------------------------
C#-----------7--8--7-----7--8--7--
G#--7-----7-----------7-----------
C#-----7--------------------------

+ + + + + + + + + + + + + + + + + + + + + + + + + + + + + + + + + + + +
Tuning: Standard

E---------------------------------------------
B--9-9-9--7--9--------------------------------
G---------------9--6-6--9--8-8----------------
D--------------------------------8-9--6-/-13--
A---------------------------------------------
E---------------------------------------------

E--------------------------------------------
B--------------------------------------------
G--------------------------------------------
D--8-9-/-14-13-----8-9-/-13-----8-9-/-14-13--
A--------------------------------------------
E--------------------------------------------

"Using the waves of sound..."
E---------------------------------
B---------------------------------
G---------------------------------
D--6-6--6--6-6--6--7-7-7--7-7--9--
A--6-6--6--6-6--6--7-7-7--7-7--9--
E--4-4--4--4-4--4--5-5-5--5-5--7--


"Who can rock a rhyme like this..."
E------------------------------------------------------
B------------------------------------------------------
G-----9-9--8-8---6---------------9-9--8-8--------------
D--6--9-9--8-8---6--4-4-4-----6--9-9--8-8----7--9-9-9--
A--6--7-7--6-6---4--4-4-4-----6--7-7--6-6----7--9-9-9--
E--4----------------2-2-2-----4--------------5--7-7-7--

When drums stop:
E-----------------------------------------
B-----------------------------------------
G-----------------------------------------
D--------6-----4--------------6-----4-----
A-----6-----6-----6--------6-----6-----6--
E--4--------------------5-----------------

When Chester starts humming:
E--------------------------------
B--------------------------------
G--------------------------------
D-----------6--7--6-----6--7--6--
A--6-----6-----------6-----------
E-----4--------------------------

The Morning After

Tuning: Dropped D one half step down
C# G# C# F# A# D#

[Intro] Accoustic
-|--------------------------------------------------------------------------|-
-|--------------------------------------------------------------------------|-
-|--------------------------------------------------------------------------|-
-|-4--x-4-4--x-4-4--x-2-x-5-5-2---------------------------------------------|-
-|-4--x-4-4--x-4-4--x-2-x-5-5-2---------------------------------------------|-
-|-4--x-4-4--x-4-4--x-2-x-5-5-2---------------------------------------------|-
Play 8 times.

[Chorus]
-|--------------------------------------------------------------------------|-
-|--------------------------------------------------------------------------|-
-|-4--x-4-4-2---------------------------------------------------------------|-
-|-4--x-4-4-2-5--x-5--5-5-2-4--x-4-4--x-4-4--x-2-x-5-5-2--------------------|-
-|-2--x-2-2-0-5--x-5--5-5-2-4--x-4-4--x-4-4--x-2-x-5-5-2--------------------|-
-|------------5--x-5--5-5-2-4--x-4-4--x-4-4--x-2-x-5-5-2--------------------|-
Play twice.

[Verse]
-|--------------------------------------------------------------------------|-
-|--------------------------------------------------------------------------|-
-|--------------------------------------------------------------------------|-
-|-4--x-4-4--x-4-4--x-2-x-5-5-2---------------------------------------------|-
-|-4--x-4-4--x-4-4--x-2-x-5-5-2---------------------------------------------|-
-|-4--x-4-4--x-4-4--x-2-x-5-5-2---------------------------------------------|-
Play 4 times.

[Chorus]
-|--------------------------------------------------------------------------|-
-|--------------------------------------------------------------------------|-
-|-4--x-4-4-2---------------------------------------------------------------|-
-|-4--x-4-4-2-5--x-5--5-5-2-4--x-4-4--x-4-4--x-2-x-5-5-2--------------------|-
-|-2--x-2-2-0-5--x-5--5-5-2-4--x-4-4--x-4-4--x-2-x-5-5-2--------------------|-
-|------------5--x-5--5-5-2-4--x-4-4--x-4-4--x-2-x-5-5-2--------------------|-
Play twice.

[Chorus]
-|--------------------------------------------------------------------------|-
-|--------------------------------------------------------------------------|-
-|-4--x-4-4-2---------------7--x-7--7-7-------------------------------------|-
-|-4--x-4-4-2-5--x-5--5-5-0-7--x-7--7-7-0-7--x-7--7-7-0---------------------|-
-|-2--x-2-2-0-5--x-5--5-5-0-5--x-5--5-5-0-7--x-7--7-7-0---------------------|-
-|------------5--x-5--5-5-0-------------0-7--x-7--7-7-0---------------------|-
Play twice.


[Chorus]
-|--------------------------------------------------------------------------|-
-|--------------------------------------------------------------------------|-
-|-4--x-4-4-2---------------7--x-7--7-7-------------------------------------|-
-|-4--x-4-4-2-5--x-5--5-5-0-7--x-7--7-7-0-7777777777777775------------------|-
-|-2--x-2-2-0-5--x-5--5-5-0-5--x-5--5-5-0-7777777777777775------------------|-
-|------------5--x-5--5-5-0-------------0-7777777777777775------------------|-
Play once.

[Verse]
-|--------------------------------------------------------------------------|-
-|--------------------------------------------------------------------------|-
-|--------------------------------------------------------------------------|-
-|-4--x-4-4--x-4-4--x-2-x-5-5-2---------------------------------------------|-
-|-4--x-4-4--x-4-4--x-2-x-5-5-2---------------------------------------------|-
-|-4--x-4-4--x-4-4--x-2-x-5-5-2---------------------------------------------|-
Play 8 times.

[Chorus]
-|--------------------------------------------------------------------------|-
-|--------------------------------------------------------------------------|-
-|-4--x-4-4-2---------------------------------------------------------------|-
-|-4--x-4-4-2-5--x-5--5-5-2-4--x-4-4--x-4-4--x-2-x-5-5-2--------------------|-
-|-2--x-2-2-0-5--x-5--5-5-2-4--x-4-4--x-4-4--x-2-x-5-5-2--------------------|-
-|------------5--x-5--5-5-2-4--x-4-4--x-4-4--x-2-x-5-5-2--------------------|-
Play twice.

[Chorus]
-|--------------------------------------------------------------------------|-
-|--------------------------------------------------------------------------|-
-|-4--x-4-4-2---------------7--x-7--7-7-------------------------------------|-
-|-4--x-4-4-2-5--x-5--5-5-0-7--x-7--7-7-0-7--x-7--7-7-0---------------------|-
-|-2--x-2-2-0-5--x-5--5-5-0-5--x-5--5-5-0-7--x-7--7-7-0---------------------|-
-|------------5--x-5--5-5-0-------------0-7--x-7--7-7-0---------------------|-
Play twice.

[Chorus]
-|--------------------------------------------------------------------------|-
-|--------------------------------------------------------------------------|-
-|-4--x-4-4-2---------------7--x-7--7-7-------------------------------------|-
-|-4--x-4-4-2-5--x-5--5-5-0-7--x-7--7-7-0-7777777777777775-4----------------|-
-|-2--x-2-2-0-5--x-5--5-5-0-5--x-5--5-5-0-7777777777777775-4----------------|-
-|------------5--x-5--5-5-0-------------0-7777777777777775-4----------------|-
Play once.

Part Of Me

A ^ under tab means palm mute.

Tuning: D-A-D-G-B-E

E----------------------------------
B----------------------------------
G----------------------------------
D----------------------------------
A------------7-7-------7-7-7-7--7--
D--6-6--6-6-------6-6--------------
^ ^ ^ ^ ^ ^ ^ ^ ^ ^ ^ ^ ^
"Part of me won't go away..."
E---------------------------------------------------------------------
B---------------------------------------------------------------------
G---------------------------------------------------------------------
D--6---6---6---6---9---9---4---4-----6---6---6---6---8---8---4---4----
A----6---6---6---6---7---7---4---4-----6---6---6---6---6---6---4---4--
D---------------------------------------------------------------------

"Cut myself free willingly..."
E-------------------------------------------
B-------------------------------------------
G-------------------------------------------
D--2--1----2--1----2--1----2--1--x-x--2--4--
A--2--1----2--1----2--1----2--1--x-x--2--4--
D--2--1----2--1----2--1----2--1--x-x--2--4--

"I feel it everyday..."
E------------------------------------------------------------------------------
B------------------------------------------------------------------------------
G-------------9-9---------9-9-9-9--9-------------11-11---------11-11-11-11-11--
D--6-6--6-6---9-9---6-6---9-9-9-9--9--6-6--6-6---11-11---6-6---11-11-11-11-11--
A--6-6--6-6---7-7---6-6---7-7-7-7--7--6-6--6-6---9--9----6-6---9--9--9--9--9---
D--6-6--6-6---------6-6---------------6-6--6-6-----------6-6-------------------

"Alive of me, inside of me..."
E-------------------------------------------------
B-------------------------------------------------
G--8-8--8-8--9-8-------8--8-8--8-8--8-8--8-8--11--
D--8-8--8-8--9-8---9-8-8--8-8--8-8--8-8--8-8--11--
A--6-6--6-6--7-6---9-8-6--7-7--7-7--7-7--7-7--9---
D------------------9-8----------------------------

+ + + + + + + + + + + + + + + + + + + + + + + + + + + + + + + + + + + +
Tuning: C#-G#-C#-F#-Bb-Eb

Eb----------------------------------
Bb----------------------------------
F#----------------------------------
C#----------------------------------
G#------------8-8-------8-8-8-8--8--
C#--7-7--7-7-------7-7--------------
^ ^ ^ ^ ^ ^ ^ ^ ^ ^ ^ ^ ^
"Part of me won't go away..."
Eb-----------------------------------------------------------------------
Bb-----------------------------------------------------------------------
F#-----------------------------------------------------------------------
C#--7---7---7---7---10---10---5---5-----7---7---7---7---9---9---5---5----
G#----7---7---7---7----8----8---5---5-----7---7---7---7---7---7---5---5--
C#-----------------------------------------------------------------------

"Cut myself free willingly..."
Eb-------------------------------------------
Bb-------------------------------------------
F#-------------------------------------------
C#--3--2----3--2----3--2----3--2--x-x--3--5--
G#--3--2----3--2----3--2----3--2--x-x--3--5--
C#--3--2----3--2----3--2----3--2--x-x--3--5--

"I feel it everyday..."
Eb--------------------------------------------------------------------------------------
Bb--------------------------------------------------------------------------------------
F#-------------10-10---------10-10-10-10--10-------------12-12---------12-12-12-12--12--
C#--7-7--7-7---10-10---7-7---10-10-10-10--10--7-7--7-7---12-12---7-7---12-12-12-12--12--
G#--7-7--7-7---8--8----7-7---8-8-8-8--8---8---7-7--7-7---10-10---7-7---10-10-10-10--10--
C#--7-7--7-7-----------7-7--------------------7-7--7-7-----------7-7--------------------

"Alive of me, inside of me..."
Eb-----------------------------------------------------------
Bb-----------------------------------------------------------
F#--9-9--9-9--10-9--------9--10-10--10-10--10-10--10-10--12--
C#--9-9--9-9--10-9---10-9-9--10-10--10-10--10-10--10-10--12--
G#--7-7--7-7--8--7---10-9-7--8--8---8--8---8--8---8--8---10--
C#-------------------10-9------------------------------------

+ + + + + + + + + + + + + + + + + + + + + + + + + + + + + + + + + + + +
Tuning: Standard

E----------------------------------
B----------------------------------
G----------------------------------
D----------------------------------
A------------7-7-------7-7-7-7--7--
E--4-4--4-4-------4-4--------------
^ ^ ^ ^ ^ ^ ^ ^ ^ ^ ^ ^ ^
"Part of me won't go away..."
E---------------------------------------------------------------------
B---------------------------------------------------------------------
G---------------------------------------------------------------------
D--6---6---6---6---9---9---4---4-----6---6---6---6---8---8---4---4----
A----6---6---6---6---7---7---4---4-----6---6---6---6---6---6---4---4--
E---------------------------------------------------------------------

"Cut myself free willingly..."
E-------------------------------------------
B-------------------------------------------
G-------------------------------------------
D--------------------------------x-x--2--4--
A--7--6----7--6----7--6----7--6--x-x--2--4--
E--7--6----7--6----7--6----7--6--x-x--0--2--

"I feel it everyday..."
E------------------------------------------------------------------------------
B------------------------------------------------------------------------------
G-------------9-9---------9-9-9-9--9-------------11-11---------11-11-11-11-11--
D--6-6--6-6---9-9---6-6---9-9-9-9--9--6-6--6-6---11-11---6-6---11-11-11-11-11--
A--6-6--6-6---7-7---6-6---7-7-7-7--7--6-6--6-6---9--9----6-6---9--9--9--9--9---
E--4-4--4-4---------4-4---------------4-4--4-4-----------4-4-------------------

"Alive of me, inside of me..."
E-------------------------------------------------
B-------------------------------------------------
G--8-8--8-8--9-8-------8--8-8--8-8--8-8--8-8--11--
D--8-8--8-8--9-8---9-8-8--8-8--8-8--8-8--8-8--11--
A--6-6--6-6--7-6---9-8-6--7-7--7-7--7-7--7-7--9---
E------------------7-6----------------------------


Cure For The Itch


-----------------------------------------------------
-----------------------------------------------------
-----------------------------------------------------
-----------------------------------------------------
9-12-7-5-9-12-7-5-9-12-7-5---------------------------
7-10-5-3-7-10-5-3-7-10-5-3---------------------------


вторая версия:
|-----------------------------
|-----------------------------
|-----------------------------
|---8-8-8-9-8-6---------------
|-6-------------9-9-8-8-8-9-8-
|-----------------------------

    
Вернуться к началу



User:  Саша
Новичок

Посмотреть профиль Отправить личное сообщение
Добавлено: Ср 08.01.03, 12:27

Linkin Park.

Tuning: C, G, C, F, A, D
* = Harmonics

D ------------------------------------------------------
A ------------------------------------------------------
F ---4-4--------------0---------------------------------
C -------5-4---4-4--4-----------------------------------
G -7----------------------------------------------------
C ------------------------------------------------------
Piano arranged for guitar

D -----------7*---------------12*--
A -----7*--------------7*----------
F -5*---------------5*-------------
C ----------------------------------
G ----------------------------------
C ----------------------------------

D ---------------------------------------------------
A ---------------------------------------------------
F -------------7-----5-------------------7-----5--4-
C -2-----5-----7-----5---0--2-----5-----7-----5--4-
G -2-----5-----5-----3---0--2-----5-----5-----3--2-
C -2-----5-----0---------0--2-----5-----0----------

Chorus/Bridge
D -------0-2-3-2--
A ----------------
F -----4----------
C ---5------------
G -7--------------
C ----------------


    
Вернуться к началу



User:  Саша
Новичок

Посмотреть профиль Отправить личное сообщение
Добавлено: Ср 08.01.03, 12:31

Rammstein
Du Hast

Проигрыш,
Припев играются одинаково:

I----------------------------------
I----------------------------------
I----------------------------------
I-2-2-2-2-7-7-7-7-10-10-9-9-2-2-2-2
I-2-2-2-2-7-7-7-7-10-10-9-9-2-2-2-2
I-0-0-0-0-5-5-5-5-8--8--7-7-0-0-0-0
Куплет играется следующим образом:
Du
Du hast
Du hast mich

Du
Du hast
Du hast mich

Du hast mich
I--------
I-------- НА ОДНОМ КВИНТЕ
I--------
I-2-2-2-2
I-2-2-2-2
I-0-0-0-0

Du hast mich gefragt
Du hast mich gefragt
Du hast mich gefragt und ich hab nichts gesagt
I------------------
I------------------
I------------------ НА ЭТОМ КВИНТЕ
I------------------
I-10-10-9-9-2-2-2-2
I-8--8--7-7-0-0-0-0

Как играется припев-выше.




Du
Du hast
Du hast mich

Du hast mich
Du hast mich gefragt
Du hast mich gefragt
Du hast mich gefragt und ich hab nichts gesagt

Willst du bis der Tod euch scheidet
treu ihr sein fur alle Tage...

nein

Willst du bis zum Tod der Scheide
sie lieben auch in schlechten Tagen....

nein

    
Вернуться к началу



User:  _Diesel_
Постоянный участник

Посмотреть профиль Отправить личное сообщение
Добавлено: Ср 08.01.03, 15:56

Linkin Park - In The End

Вот это нормальный подбор:
Eb|---------------------|
Bb|---------------------|
Gb|---4-4---------------|
Db|-2-----5-4-4-4-4-5---|
Ab|---------------------|
Db|---------------------|

Verse(distortion)-(notes in parentheses are
clean)

Eb|-----------------7*----------12*---|
Bb|-------------7*---------7*---------|
Gb|-(4*)-(5*)----------5*-------------|
Db|-----------------------------------|
Ab|-----------------------------------|
Db|-----------------------------------|

Chorus(distortion)-(In the background
the DJ plays the verse)

Eb|---------------------|
Bb|---------------------|
Gb|---------------------|
Db|-2---5---0-------6---|
Ab|-2---3---0---9---6---|
Db|-2-------0---7---6---|

Bridge(distortion)

Eb|---------------------------|
Bb|---------------------------|
Gb|---------------------------|
Db|-2-2-2-5-5-5-0-0-0-----6---|
Ab|-2-2-2-3-3-3-0-0-0-9-9-6---|
Db|-2-2-2-------0-0-0-7-7-6---|

Piano Outro(clean)

Eb|---------------------0-2-3-2---|
Bb|-------------------0-----------|
Gb|---4-4-------------------------|
Db|-2-----5-4-4-4-4-5-------------|
Ab|-------------------------------|
Db|-------------------------------|

Lyrics:

1st Verse

It starts with one thing
I don´t know why
It doesn´t even matter how hard you try
keep that in mind
I designed this rhyme
To explain in due time
All I know
Time is a valuable thing
Watch it fly by as the pendulem swings
Watch it count down to the end of the day
The clock ticks life away
It´s so unreal
Didn´t look out below
Watched the time go out the window
Trying to hold on, but didn´t even know
Wasted it all to watch you go
I kept everything inside and even though I tried,
it all fell apart
What it meant to me will eventually be a memory
of a time
when

Chorus

I tried so hard
And got so far
But in the end
It doesn´t even matter
I had to fall
To lose it all
But in the end
It doesn´t even matter

2nd Verse

One thing, I don´t know why
It doen´t even matter how hard you try
Keep that in mind
I designed this rhyme to remind myself how
I tried so hard
In spite all way you were mocking me
Acting like I was part of your property
Remembering all the times you fought with me
I´m surprised it got so far
Things aren´t the way they were before
You wouldn´t even recognize me anymore
Not that you knew me back then
But it all comes back to me(in the end)
I kept everything inside and even though I tried,
it all
fell apart
What it meant to me will eventually be a memory
of a time
when

Chorus

Bridge(2x)

I´ve put my trust in you
Pushed as far as I can go
And for all this
There´s only one thing you should know

Chorus

    
Вернуться к началу



User:  IvanSyzran
Гражданин форума

Посмотреть профиль Отправить личное сообщение ICQ Number
Добавлено: Чт 09.01.03, 10:51

А как насчёт Rammstein? вот одна простенькая но красивая мелодил:
Klavier.
Standard Tuning Intro:
Eb|-----5---------------------------|
Bb|-------------8-------6---8---5---|
Gb|---5---5---5---5---5-------------|
Db|-7-------7-------7-----7---7-----|
Ab|---------------------------------|
Eb|---------------------------------|
(0:08)Sie sagen zu mir
Eb|-----5---------------------------|
Bb|-------------8-------6---8---5---|
Gb|---5---5---5---5---5-------------|
Db|-7-------7-------7-----7---7-----|
Ab|---------------------------------|
Eb|---------------------------------| Eb|-----3---------------------------|
Bb|-------------6-------5---6---5---|
Gb|---5---5---5---5---5-------------|
Db|-3-------3-------3-----3---3-----|
Ab|---------------------------------|
Eb|---------------------------------| Eb|-----3-------2-------------------|
Bb|---------------------5-------5p3-|
Gb|---4---4---4---4---4---4---4-----|
Db|-2-------2-------2-------2-------|
Ab|---------------------------------|
Eb|---------------------------------| Riff 1(a)
w/Heavy Metal Distortion
Tremolo Picking Eb|--------------------------------------|
Bb|--------------------------------------|
Gb|-------------777777777777777777777----|
Db|-88888888888-777777777777777777777----|
Ab|-88888888888-555555555555555555555----|
Eb|-66666666666--------------------------|
(0:57) Dort Dam Klavier Riff 1(b)
Eb|---------------------------------------|
Bb|---------------------------------------|
Gb|-8888888888888-55555555555555555555555-|
Db|-8888888888888-55555555555555555555555-|
Ab|-6666666666666-33333333333333333333333-|
Eb|---------------------------------------|
Hielt Ich den Atem Man Riff 2(a)
w/Heavy Metal Distortion
Tremolo Picking Eb|--------------------------------------------|
Bb|--------------------------------------------|
Gb|--------------------------------------------|
Db|---9999999999999999999-7777777777777777777--|
Ab|---9999999999999999999-7777777777777777777--|
Eb|-0-7777777777777777777-5555555555555555555--|
(2:26) Eb|---------------------------------------------------|
Bb|---------------------------------------------------|
Gb|---------------------------------------------------|
Db|-999999-1010101010101010-777777777777777777-2~~~~--|
Ab|-999999-1010101010101010-777777777777777777-2~~~~--|
Eb|-777777-8888888888888888-555555555555555555-0~~~~~-| Bb|--12-10-12~~~--------------------------------------| Sie sagen zu mir
schliess auf diese Tur
die Neugier wird zum Schrei
was wohl dahinter sei
hinter dieser Tur
steht ein Klavier
die Tasten sind staubig
die Saiten sind verstimmt
hinter dieser Tur
sitzt sie am Klavier
doch sie spielt nicht mehr
ach das ist so lang her dort am Klavier
lauschte ich ihr
und wenn ihr Spiel begann
hielt ich den Atem an Sie sagte zu mir
ich bleib immer bei dir
doch es hatte nur den Schein
sie spielte fur mich allein
ich goss ihr Blut
ins Feuer meiner Wut
ich verschloss die Tur
man fragte nach ihr Dort am Klavier
lauschte ich ihr
und wenn ihr Spiel begann
hielt ich den Atem an
dort am Klavier
stand ich bei ihr
es hatte den Schein
sie spielte fur mich allein Geoffnet ist die Tur
ei wie sie schreien
ich hore die Mutter flehen
der Vater schlagt auf mich ein
man lost sie vom Klavier
und niemand glaubt mir hier
das ich todkrank
von Kummer und Gestank Dort am Klavier
lauschte ich ihr
und wenn ihr Spiel begann
hielt ich den Atem an
Dort am Klavier
lauschte sie mir
und als mein Spiel begann
hielt sie den Atem an

    
Вернуться к началу



User:  _Diesel_
Постоянный участник

Посмотреть профиль Отправить личное сообщение
Добавлено: Вт 14.01.03, 20:19

Aквариум - Город
Лююююююди!!! Это крутенная песня!!!

e||-----------0-------7-5-3-2-3----0-8-7-5-3-2-3-5---8-7-5-3-5-2-------|
B||-0-8-7-5-4------0--------------0--------------------------------4-0-|
G||---------------0--------------0---------------------------------2---| 2
D||---------------2---5-3-2-1-2------7-5-4-2-1-2-4---7-5-4-2-4-2-4-----| раза
A||-------3-2---2----------------------------------------------2-------|
E||---0-------0--------------------------------------------------------|

|-7-7---------------5-5-------------------------0-5-3-2-0-0-2-------0-5-3-2-0-2-0-|
|-----0-0-0-------------1-1-1-1-0---0-0-------1-------------4-----1-----------4-0-|
|-----7-7-7-7-5-4-5-----2-2-2-----2---------2---------------2---2-------------2-0-|
|-----6-6-6-------------4-4-4-------------4-----------------4-4---------------4---|
|---------------------0-----------------------------------3-2---------------3-2---|
|---0-------0-----------------3-------------------------------------------------0-|
Am Am
Под небом голубым есть город золотой.
Dm E
С прозрачными воротами и яркою звездой.
Am Am
А в городе том - сад, все травы, да цветы
Dm E Am
Гуляют там животные невиданной красы.
A7 Dm
Одно, как желтый огнегривый лев,
G7 C
Другое - вол исполненный очей.
Dm E
С ними золотой орел небесный
Dm E Am
Чей так светел взор незабываемый.

А в небе голубом горит одна звезда.
Она твоя, о, ангел мой, она твоя всегда.
Кто любит тот любим, кто светел тот и свят
Пускай ведет звездa тебя дорогой в дивный сад.
Тебя там встретит огнегривый лев
И синий вол, исполненный очей.
С ними золотой орел небесный
Чей так светел взор незабываемый.
-Cool -Cool -Cool

    
Вернуться к началу



User:  _Diesel_
Постоянный участник

Посмотреть профиль Отправить личное сообщение
Добавлено: Сб 18.01.03, 11:27

Очень важная вещь для гитариста - ГАММЫ.... кто не согласен? Делитесь народ соображениями...как пальчики то разработать -Cool

    
Вернуться к началу



User:  _Diesel_
Постоянный участник

Посмотреть профиль Отправить личное сообщение
Добавлено: Сб 18.01.03, 11:29

так называемая пентатоника (если не ошибаюсь, китайский музыкальный строй), ее очень полезно разучить для дальнейших импровизаций - гоняйте как хотите, в любую сторону, с любой ноты и в любой последовательности, но сначала отработайте оригинал:

e:-7-5-----------------------
H:-----7-6-5-----------------
G:-----------7-4-2-----------
D:-----------------4-3-2-----
A:-----------------------5-2-
E:---------------------------

А теперь пройдитесь в другую сторону. Затем туда-сюда и... тренеруйтесь, тренеруйтесь!
-Cool -Cool -Cool

    
Вернуться к началу


Новая тема    Ответить
На страницу Пред.  1, 2, 3, 4  След.

 Перейти:  



Следующая тема
Предыдущая тема
Вы не можете начинать темы
Вы не можете отвечать на сообщения
Вы не можете редактировать свои сообщения
Вы не можете удалять свои сообщения
Вы не можете голосовать в опросах

ВходВход

Powered forum by phpBB
© 2001, 2002 phpBB Group